català | castellano | english
admin | mail | agenda
Universitat Rovira i Virgili
University Tuna
Industrial engineers of Tarragona
Sebastopol
There are no translations available.

<<<

INTRODUCCIÓN:  Am, E7, Am, [E7, Am], Am, E7, Am  (BIS)

Am E7 Am
Escucha niña, este pasacalles
E7
que dedicado a tu belleza va,

por ser la niña más guapa del barrio
Am
la más bonita de la localidad.

Am E7 Am
Adiós te dice la Tuna de Ingenieros
E7
adiós te dice con este alegre son

pero no olvides muchacha bonita
Am
que te llevamos dentro del corazón.

A
Se va, se va, se va,
Bbd E7
se va la tuna, ya se va,
Bm E7
se va, se va, se va, se va,
Bm E7 A
se va a Sebastopol.


A
Se va, se va, se va,
A7 D
con su amores a rondar,
A F#7 Bm
y mi corazón nunca jamás
E7 A
te olvidará.


CIFRADOS

|----0-2-3--3-2--3-2-0----0-----0-2-3--3-2-0---0-2---2-2-3-5--3-2-0---0-2---2-2-3-5--3-2-
|--0--------------------0-----0--------------4----------------------4--------------------
|----------------------------------------------------------------------------------------
|
|
|----------------------------------------------------------------------------------------
|--------0--0----0------------------0--0-----------------0-1--0-----------------0-1-0----
|--1-1-3------3----3-1--0-1---1-1-3------3-1-0-1-3---3-3--------3-1-0-1-3---3-3-------3--



|--3-2-0---
|----------
|----------
|
|
|----------
|--0-------
|----3-1---



Escucha niña este pasacalles, que dedicado a tú belleza va. Por ser la chica más guapa
|-3--2--3--2-0-3--2--0-3-2--0-----3--2-3-2-0-0--2--0----0--2---5---3---5---3-2--5---3--2-
|-----------------------------------------------------4----------------------------------
|----------------------------------------------------------------------------------------
|
|
|----------------------------------------------------------------------------------------
|----------------------------------------------------------------------------------------
|-1--0--1--0---1--0----1-0--------1--0-1-0------0----------0---3---1---3---1-0--3---1--0-
|------------3-------3------3--------------3-3-----3--2-3--------------------------------



del barrio, la más bonita de la localidad.
|--5---3--2----5--3---5-3-2--2--3--2-0---0-----
|--------------------------------------4-------
|----------------------------------------------
|
|
|----------------------------------------------
|----------------------------------------------
|--3---1--0----3--1---3-1-0--0--1--0-----------
|------------------------------------3-2-3-----



Se va, se va, se va, se va la Tuna ya se va, se va, se va, se va, se va, se va_a
|-----0-------------0------------0----0--------------------------------------------------
|--0------4--2---0------0--2--4----4-----2--4---0--4---4--2------4---4--2---0---4--------
|----------------------------------------------------------------------------------------
|
|
|----------------------------------------------------------------------------------------
|---------0-------------------0--2-0--2--------------------------------------------------
|--2--2------3---2--2---2--3-------------3--0---0--0---0--3---2--0---0--3---2---0--------



Sebastopol. Se va, se va, se va, con sus amores a rondar, y mi corazón nunca jamás
|--2-0------------0-------------0------------0-4--2--0--5---5--4--2-5-4---2--0-----------
|-------2-0----0------4--2---0-------0--2--4------------------------------------2-0------
|----------------------------------------------------------------------------------------
|
|
|----------------------------------------------------------------------------------------
|------------------------0-----------------0-2-0--4--3--2---2--0----2-0------------------
|--3-2--3-2----2--2---2------3--2---2---3-------------------------3-------3--2--0-0------



te_olvidará.
|---5---4-2-0-----0---
|---------------0-----
|---------------------
|
|
|---------------------
|-------0-------------
|---0-----3-2---0-2---
 
admin | mail | agenda
català | castellano | english
www.tunatarragona.com
tuna [a] tunatarragona.com