català | castellano | english
admin | mail | agenda
Universitat Rovira i Virgili
Tuna d'Enginyers
Tècnics Industrials de Tarragona
El parrandero

<<<

 A
Cuanto me gusta el vino

y toda la parranda,
Bbd E7
que todo se me va en ver que hacer
Bm E7 A
para enamorar a esa pérfida mujer. (BIS)


A E7
Bello es amar a una mujer,
Bm E7 A
pero es mejor a dos o tres, (ó a una mujer que sepa amar, ó pero es mejor a ciento tres)
F# Bm
porque el amor, el amor es traicionero,
A E7 A
yo soy un parrandero, porque lo voy negar.


A Bbd E7
Si esto es así, que le voy a hacer,
Bm E7 A
si en el amor, todo es perder,
F# Bm
porque el amor, el amor es traicionero,
A E7 A
yo soy un parrandero porque lo voy a negar.



CIFRADOS

Cuanto me gusta_el vino y toda la parranda que todo se me va en ver que_hacer
|------------------------------------------------------------------------0---------------
|--0---0--0--2---2----0-0-0--2-2--2--2--0--0---0--2-2--2--2--0-0---2-----2---4-----------
|--2---2--2--3---3----2-2-2--3-3--3--3--2--2---2--3-3--3--3--2-2---3---------5-----------


para_enamorar a_esa pérfida mujer. para_enamorar a_esa pérfida mujer.
|--2--2--------------------------0----- --------------------------------------
|--------4-4-0---0--0--2--0-2--4------- --4--4--0-0-----------0----0----------
|-------------------------------------- ------------3---3--3-----3----3-2-----



Que bello_es amar a_una mujer, pero_es mejor a dos o tres, porque_el amor, el amor
|---4--4---4---2-0---2--2--0------5--5----4-2--4--4--2---0----4----4---2-1---------------
|---0--0---0-----------------4----2--2----0----0--0-----------0----0---------2--2-2------
|--------------3-2---3--3--2-0--------------3--------3---2-------------3-2---------------
|----------------------------------------------------------------------------3--3-3------


es traicionero, yo soy un parrandero, porque lo voy a negar.
|---------1--4-2---2--5--5---4--2--4-0---4---2--4--2--0----0----
|-2----4-----0--------2--2---0-----0-----0------0--------4------
|------0--2----3---3------------3----2-------3-----3--2--0-2----
|-3-------------------------------------------------------------
 
admin | mail | agenda
català | castellano | english
www.tunatarragona.com
tuna [a] tunatarragona.com