català | castellano | english
admin | mail | agenda
Universitat Rovira i Virgili
Tuna d'Enginyers
Tècnics Industrials de Tarragona
El parque

<<<

                 A             Bbd
Paseando por el parque yo me vi
Bm
con una muchachita muy gentil,
E7
del bracito los dos al caminar
A
entonces yo mi amor le declaré,
F# Bm
pero ella dijo que no, que no, que no sabía querer,
A E7 A E7 A
quiéreme un poquito reina de mi vida, flor de mi querer.



Pero mira qué bonito que es
E7
bailar el vals así,

juntitos los dos,
A
moviendo los pies,

juntando los tacos
E7
que ya están gastados
A
que ya viene el chaco gritando salud,
A7 D E7 A E7 A
brindemos con chicha por esa cholita que vale un Perú.


A Bbd
Cantando una canción le susurré
Bm
que en mi corazón tengo un frenesí,
E7
que en mi capa la quiero cobijar
A
bailando un vals que nunca tenga fin.
F# Bm
Pero ella repetía que no, que no, que no sabía querer,
A E7 A E7 A
quiéreme un poquito reina de mi vida, flor de mi querer.



CIFRADOS

Paseando por el parque yo me vi con una muchachita muy gentil del bracito los dos al
|-----------------4---4--4--4--4----------------5-5--5---5--5-------------------5--5-----
|-0-2---4--2--0-------------------0--2-4--2--0------------------0----2-4-2--0------------
|----------------------------------------------------------------------------------------
|
|
|----------------------------------------------------------------------------------------
|-------0---------0---0--0--0--0-------0--------0-0--0---0--0----------0--------0--0-----
|-2--4-----4--2-------------------2--4----4--2------------------0----4---4--2------------



caminar entonces yo mi_amor le declaré. Pero_ella dijo que no que no que no que no
|-5-5-5-------------------4---4--4--4-4-----------------------------0---0--4---4--7------
|--------0--2--4---2---0------------------0--0---2--4-2---0--2---2-----------------------
|----------------------------------------------------------------------------------------
|
| No No
|----------------------------------------------------------------------------------------
|-0-0-0--------0----------0---0--0--0-0----------------------2-------------0-------------
|--------2--4------4---2-----------------------------------------------------------------



sabí_a querer, quiéreme_un poquito reina de mi vida flor de mi querer.
|-7-7-5---4-5-----2--4--5----2--4-2--0--4--2--0--2-0-------2--0-----0-----0---
|-----------------------------------------------------4----------4--0---0-----
|-----------------------------------------------------------------------------
|
| No
|-----------------------------------------------------------------------------
|--------------------0--2-------0-------0---------------------------------0---
|---4-------------4----------4----4--2-----4--2--4-2---0---4--2---0-2---0-----



Pero mira que bonito que_es bailar el vals así, juntitos los dos, moviendo los pies
|-4-0--2-----0--------------------------------------------------------0---0--0---0-------
|--------4------2-4-0----2----0--2--0---4---4-4---0--4-4---4---4----0--------------------
|----------------------------------------------------------------------------------------
|
|
|-0--------------------------------------------------------------------------------------
|---2--4-0---2----0---------------------0---0-0------0-0---0---0------0---0--0---0-------
|---------------4---2----4----0--4--0-------------0-----------------2--------------------



juntando los tacos que ya_están gastados que ya viene_el chaco gritando salud, brindemos
|----0--0--0---0-0--------------------------------------------------0--0--4-7-----0--4-2-
|-0-------------------0---4---4---4--4-4----0--4--4---4-----4-4---0-------5-5------------
|----------------------------------------------------------------------------------------
|
|
|----------------------------------------------------------------------------------------
|----0--0--0---0-0--------0---0---0--0-0-------0--0---0-----0-0-----0--0--0-------2--0---
|-2-------------------0---------------------0---------------------2---------2----------4-



con chicha por esta cholita que vale_un Perú.
|-0----------------------------------4----2-0----
|------2--2--2--2--2---2-4-4---4--0--------------
|------------------------------------------------
|
|
|------------------------------------------------
|------------------------0-0---0--0--0------0----
|-2----4--4--4--4--4---4------------------4-2----
 
admin | mail | agenda
català | castellano | english
www.tunatarragona.com
tuna [a] tunatarragona.com